Select Page
Complete Guitar Tabs and Chords for “Hey Joe”

Complete Guitar Tabs and Chords for “Hey Joe”

Introduction

Hey, Joe is a classic rock song covered by numerous artists. It was initially written by Billy Roberts and made famous by Jimi Hendrix. The song features a catchy guitar riff and powerful lyrics that have made it a staple in the rock genre.

Guitar Tabs

Here are the guitar tabs for “Hey Joe”:

e|--------------------------------------------------------|
B|--------------------------------------------------------|
G|--------------------------------------------------------|
D|-----------------2-----0--------------------------------|
A|-------2-----3-----2-----0----------------------------|
E|-0-3-----3------------------3-------------------------|

Chords

Here are the chords for “Hey Joe”:

   E7    G     D     A
e|-0-----3-----2-----0--|
B|-0-----0-----3-----2--|
G|-1-----0-----2-----2--|
D|-0-----0-----0-----2--|
A|-2-----2-----------0--|
E|-0-----3----------------|

Strumming Pattern

The strumming pattern for “Hey Joe” is fairly simple. You can use a basic down-up strumming pattern, emphasizing the beats on the downstrums. Here’s an example:

↓↑↓↑↓↑↓↑↓↑↓↑↓↑↓↑↓↑↓↑↓↑↓↑↓↑↓↑↓↑↓↑↓↑

Conclusion

Now that you have the complete guitar tabs and chords for “Hey Joe”, you can start practicing and playing along to this iconic rock song. Remember to take it slow at first and gradually increase your speed as you become more comfortable with the song. Have fun, and keep rocking!

Complete Chords and Tabs for “Send Me an Angel”

Complete Chords and Tabs for “Send Me an Angel”

Guitar chords and tabs are essential tools for any aspiring guitarist. Whether you’re a beginner or an experienced player, having access to accurate and detailed chord and tablature information can significantly enhance your playing abilities. This blog post will provide complete chords and tabs for the song “Send Me an Angel.”

Chords

Here are the chords you will need to play “Send Me an Angel”:

Verse:
Am     C        G        Dm
Send me an angel, right now
Am     C        G        Dm
Send me an angel, somehow

Chorus:
F      G       C       Am
Send me an angel, to guide me through the night
F      G       C       Am
Send me an angel, to make everything alright

These chords are played throughout the song, and you can strum them in a pattern that suits your playing style and preferences. Practice transitioning between the chords smoothly to achieve a polished sound.

Tabs

For those who prefer playing the song using tabs, here is the tablature for the main melody of “Send Me an Angel”:

e|------------------|------------------|------------------|------------------|
B|------------------|------------------|------------------|------------------|
G|-----0-2-0-2-0----|-----0-2-0-2-0----|-----0-2-0-2-0----|-----0-2-0-2-0----|
D|---2-------------|-4----------------|-5----------------|-7----------------|
A|-0---------------|------------------|------------------|------------------|
E|------------------|------------------|------------------|------------------|

This tab represents the song’s main melody and can be played on the higher strings of your guitar. Take your time to practice each section slowly and gradually increase the speed as you become more comfortable.

Remember, practice is key when learning a new song. Practice small sections of the song individually before putting it all together. Start slow and gradually increase the tempo. With time and dedication, you can play “Send Me an Angel” with ease.

Conclusion

Having access to complete chords and tabs is invaluable for any guitarist. Whether you’re a “Send Me an Angel” fan or want to expand your repertoire, these chords and tabs will help you master this beautiful song. Remember to practice regularly and have fun while playing. Happy strumming!